Post HevyDevy fan art, covers, mashups, guitar tabs, etc here
#325453 by Gatsu
Mon Sep 19, 2016 8:37 pm
--------------------------------------------------------- Warrior – Devin Townsend Project ----------------------------------------------------------------- Tabbed by: Gatsu Tuning: CGCGCE
A warning before you continue, this tab is not 100% correct. With his tuning there are multiple ways of doing the same pattern. I’m almost positive he uses a 7 string for this song. He might be using one of his open B tunings as well, but this is the best way I could figure out how to play this song in the C tuning.
E|------------------------------------------------------------------|
C|------------------------------------------------------------------|
G|-----------------------3~--3/5~--3----------------------------|
C|------5-------6-----------------------6-5~---------------------|
G|------------------------------------------------------------------|
C|-66-----66------66---------------------------------------------|
** ** **
E|------------------------------------------------------------------|
C|------------------------------------------5~---------------------|
G|-----------------------3~--3/5~--3---------5~----------------|
C|------5-------6-----------------------6-------------------------|
G|------------------------------------------------------------------|
C|-66-----66------66---------------------------------------------|
** ** **
E|------------------------------------------------------------------|
C|------------------------------------------------------------------|
G|-------------------3~--3/5~--3--------------------------------|
C|-5--------6-----------------------6-5~-------------------------|
G|------------------------------------------------------------------|
C|-----66------66-------------------------------------------------|
** **
E|------------------------------------------------------------------|
C|------------------------------------------5~---------------------|
G|-----------------------3~--3/5~--3--------5~-----------------|
C|------5-------6-----------------------6-------------------------|
G|------------------------------------------------------------------|
C|-66-----66------66--------------------------------------------|
** ** **
E|------------------------------------------------------------------|
C|------------------------------------------------------------------|
G|------------------------------------------------------------------|
C|-1p0------1------1p0---55-66-33-66-11-66-----66-------|
G|-1p0--0--1--00-1p0----------------------------44-----------|
C|-1p0--0--1--00-1p0------------------------------------------|
* ** ** ** ** ** ** ** ** **
E|------------------------------------------------------------------|
C|------------------------------------------------------------------|
G|------------------------------------------------------------------|
C|-1p0------1-----1p0---55-66-33-66-5p3---6\3-----------|
G|-1p0--0--1--0--1p0-------------------------4----------------|
C|-1p0--0--1--0--1p0-------------------------------------------|
* * ** ** ** **
E|------------------------------------------------------------------|
C|------------------------------------------------------------------|
G|------------------------------------------------------------------|
C|-1p0------1------1p0---55-66-33-66-11-66-----66-------|
G|-1p0--0--1--00-1p0----------------------------44-----------|
C|-1p0--0--1--00-1p0------------------------------------------|
* ** ** ** ** ** ** ** ** **
E|------------------------------------------------------------------|
C|------------------------------------------------------------------|
G|------------------------------------------------------------------|
C|-1p0------1-----1p0---55-66-33-66-6p3---5--------------|
G|-1p0--0--1--0--1p0-------------------------4----------------|
C|-1p0--0--1--0--1p0-------------------------------------------|
* * ** ** ** **
E|------------------------------------------------------------------|
C|------------------------------------------------------------------|
G|------------------------------------------------------------------|
C|-5--------5---------5--------5--------5-5----------------------|
G|-5--------5---------5--------5--------5-5---------------------|
C|-5-5555-5-5555-5-5555-5-5555-5-5---------------------|
**** **** **** ****
E|------------------------------------------------------------------| This part could be tricky for some people.
C|------------5---6-6-13-13-10-10----------------------------| The beat is a little weird, so just listen to the track
G|------------------------------------------------------------------| to get a feel for how it’s supposed to sound.
C|------------5---6-6-13-13-10-10-----------------------------| That second open note on the C is hard to
G|------------------------------------------------------------------| describe in tab form.
C|-0---{0}---------------------------------------------------------|
* *
E|---------------------------------------------------------------------------------|
C|------------------------------------------------------------------------------6-|
G|---------------------------------------------------------4------6-----8--------|
C|-5--------5---------5--------5--------5-5-{0}--------------------------------|
G|-5--------5---------5--------5--------5-5-{0}--444----44----44---44----|
C|-5-5555-5-5555-5-5555-5-5555-5-5-{0}}}-----------------------------|
**** **** **** **** * *** ** ** **
E|--------------------------------------------------------------------------44----------------|
C|-----------------------------------------33-------------55---------33-----33-55--------|
G|-------{1}----------{1}------------44-------------44---------44-----------------66-33-|
C|-{1}---{1}---{1}---{1}----33-66---------33-66---------66-----------------------------| This is done 3x
G|-{1}—{1}---{1}---{1}---------------------------------------------------------------------|
C|-{1}----------{1}---------------------------------------------------------------------------|
** ** ** ** ** ** ** ** ** ** ** ** ** ** ** **
E|------------------------------------------------------------------|
C|------------------------------------------------------------------|
G|-------------------3~--3/5~--3--------------------------------|
C|-5--------6-----------------------6-5~-------------------------|
G|------------------------------------------------------------------|
C|-----66------66-------------------------------------------------|
** **
E|------------------------------------------------------------------|
C|------------------------------------------5~---------------------|
G|-----------------------3~--3/5~--3--------5~-----------------|
C|------5-------6-----------------------6-------------------------|
G|------------------------------------------------------------------|
C|-66-----66------66--------------------------------------------|
** ** **
E|------------------------------------------------------------------|
C|------------------------------------------------------------------|
G|------------------------------------------------------------------|
C|-1p0------1------1p0---55-66-33-66-11-66-----66-------|
G|-1p0--0--1--00-1p0----------------------------44-----------|
C|-1p0--0--1--00-1p0------------------------------------------|
* ** ** ** ** ** ** ** ** **
E|------------------------------------------------------------------|
C|------------------------------------------------------------------|
G|------------------------------------------------------------------|
C|-1p0------1-----1p0---55-66-33-66-5p3---6\3-----------|
G|-1p0--0--1--0--1p0-------------------------4----------------|
C|-1p0--0--1--0--1p0-------------------------------------------|
* * ** ** ** **
E|------------------------------------------------------------------|
C|------------------------------------------------------------------|
G|------------------------------------------------------------------|
C|-1p0------1------1p0---55-66-33-66-11-66-----66-------|
G|-1p0--0--1--00-1p0----------------------------44-----------|
C|-1p0--0--1--00-1p0------------------------------------------|
* ** ** ** ** ** ** ** ** **
E|------------------------------------------------------------------|
C|------------------------------------------------------------------|
G|------------------------------------------------------------------|
C|-1p0------1-----1p0---55-66-33-66-6p3---5--------------|
G|-1p0--0--1--0--1p0-------------------------4----------------|
C|-1p0--0--1--0--1p0-------------------------------------------|
* * ** ** ** **
E|------------------------------------------------------------------|
C|------------------------------------------------------------------|
G|------------------------------------------------------------------|
C|-5--------5---------5--------5--------5-5----------------------|
G|-5--------5---------5--------5--------5-5---------------------|
C|-5-5555-5-5555-5-5555-5-5555-5-5---------------------|
**** **** **** ****
E|------------------------------------------------------------------|
C|------------5---6-6-13-13-10-10----------------------------|
G|------------------------------------------------------------------|
C|------------5---6-6-13-13-10-10-----------------------------|
G|------------------------------------------------------------------|
C|-0---{0}---------------------------------------------------------|
* *
E|---------------------------------------------------------------------------------|
C|------------------------------------------------------------------------------6-|
G|---------------------------------------------------------4------6-----8--------|
C|-5--------5---------5--------5--------5-5-{0}--------------------------------|
G|-5--------5---------5--------5--------5-5-{0}--444----44----44---44----|
C|-5-5555-5-5555-5-5555-5-5555-5-5-{0}}}-----------------------------|
**** **** **** **** * *** ** ** **
E|--------------------------------------------------------------------------44----------------|
C|-----------------------------------------33-------------55---------33-----33-55--------|
G|-------{1}----------{1}------------44-------------44---------44-----------------66-33-|
C|-{1}---{1}---{1}---{1}----33-66---------33-66---------66-----------------------------| This is done 4x
G|-{1}—{1}---{1}---{1}---------------------------------------------------------------------|
C|-{1}----------{1}---------------------------------------------------------------------------|
** ** ** ** ** ** ** ** ** ** ** ** ** ** ** **
E|-44--------------| E|-----------------------| So the 44,33,66,33 is done for a while, then later
C|-----33-66-33-| C|-33-66-33-Rest----| he does the 33,66,33, Rest. This long part
G|------------------| G|-----------------------| is done 2x.
C|------------------| C|------------------------|
G|-------------- ---| G|------------------------|
C|------------------| C|------------------------|
** ** ** ** ** ** **
From 2:50 To 3:01 I don’t really know what’s happening there. I think he does ascending variations of the 44,33,66,33 pattern. Maybe ascending variations of 33,66,33 no rest.

E|--------------------------------------------------------------------------44----------------|
C|-----------------------------------------33-------------55---------33-----33-55--------|
G|-------{1}----------{1}------------44-------------44---------44-----------------66-33-|
C|-{1}---{1}---{1}---{1}----33-66---------33-66---------66-----------------------------| This is done 2x
G|-{1}—{1}---{1}---{1}---------------------------------------------------------------------|
C|-{1}----------{1}---------------------------------------------------------------------------|
** ** ** ** ** ** ** ** ** ** ** ** ** ** ** **
E|----------------------------------------------44---------------------| Then ending on the 2 note arpeggio section.
C|-------------33-------------55---------33-----33-55-------------|
G|---------44-------------44---------44-----------------66-33-----| This is done 2x
C|-33-66---------33-66---------66---------------------------------|
G|----------------------------------------------------------------------|
C|----------------------------------------------------------------------|
** ** ** ** ** ** ** ** ** ** ** ** ** ** ** **
| / slide up
| \ slide down
| h hammer-on
| p pull-off
| ~ vibrato
| * Palm mute
| {x} Let ring

Anyway, this is my first tab. Hope it makes sense. I think I got a majority of this song correct. Although if you play this and listen to the song. I left out some sliding up, and down parts in favor for keeping most of the patterns to the lower end of the neck. I’ve been doing this for the past 3 hours and I just don’t want to spend another 30 min to hour trying to 100% the section between 2:50 – 3:01. I will likely do that another time when I feel like it, and will update the Tab. Well, hope you enjoy being able to play such an awesome song, I noticed it’s nowhere to be seen on the internet and this is one of my favorite songs. I figured if no one else will do it, I’ll just have to. If this tab turns out to be good enough for people, feel free to share it with each other and post it on other tablature websites as long as it says “Tabbed By Gatsu.”
#325578 by Gatsu
Wed Oct 12, 2016 4:57 am
----------------------------------------------------------------- Warrior – Devin Townsend Project ----------------------------------------------------------------- Tabbed by: Gatsu Tuning: CGCGCE
A warning before you continue, this tab is not 100% correct. With his tuning there are multiple ways of doing the same pattern.
E|------------------------------------------------------------------|
C|------------------------------------------------------------------|
G|-----------------------3~--3/5~--3----------------------------|
C|------5-------6-----------------------6-5~---------------------|
G|------------------------------------------------------------------|
C|-66-----66------66---------------------------------------------|
** ** **
E|------------------------------------------------------------------|
C|------------------------------------------5~---------------------|
G|-----------------------3~--3/5~--3---------5~----------------|
C|------5-------6-----------------------6-------------------------|
G|------------------------------------------------------------------|
C|-66-----66------66---------------------------------------------|
** ** **
E|------------------------------------------------------------------|
C|------------------------------------------------------------------|
G|-------------------3~--3/5~--3--------------------------------|
C|-5--------6-----------------------6-5~-------------------------|
G|------------------------------------------------------------------|
C|-----66------66-------------------------------------------------|
** **
E|------------------------------------------------------------------|
C|------------------------------------------5~---------------------|
G|-----------------------3~--3/5~--3--------5~-----------------|
C|------5-------6-----------------------6-------------------------|
G|------------------------------------------------------------------|
C|-66-----66------66--------------------------------------------|
** ** **
E|------------------------------------------------------------------|
C|------------------------------------------------------------------|
G|------------------------------------------------------------------|
C|-1p0------1------1p0---55-66-33-66-11-66-----66-------|
G|-1p0--0--1--00-1p0----------------------------44-----------|
C|-1p0--0--1--00-1p0------------------------------------------|
* ** ** ** ** ** ** ** ** **
E|------------------------------------------------------------------|
C|------------------------------------------------------------------|
G|------------------------------------------------------------------|
C|-1p0------1-----1p0---55-66-33-66-5p3---6\3-----------|
G|-1p0--0--1--0--1p0-------------------------4----------------|
C|-1p0--0--1--0--1p0-------------------------------------------|
* * ** ** ** **
E|------------------------------------------------------------------|
C|------------------------------------------------------------------|
G|------------------------------------------------------------------|
C|-1p0------1------1p0---55-66-33-66-11-66-----66-------|
G|-1p0--0--1--00-1p0----------------------------44-----------|
C|-1p0--0--1--00-1p0------------------------------------------|
* ** ** ** ** ** ** ** ** **
E|------------------------------------------------------------------|
C|------------------------------------------------------------------|
G|------------------------------------------------------------------|
C|-1p0------1-----1p0---55-66-33-66-6p3---5--------------|
G|-1p0--0--1--0--1p0-------------------------4----------------|
C|-1p0--0--1--0--1p0-------------------------------------------|
* * ** ** ** **
E|------------------------------------------------------------------|
C|------------------------------------------------------------------|
G|------------------------------------------------------------------|
C|-5--------5---------5--------5--------5-5----------------------|
G|-5--------5---------5--------5--------5-5---------------------|
C|-5-5555-5-5555-5-5555-5-5555-5-5---------------------|
**** **** **** ****
E|-------------------------9-9-6-6--------------------------------| This part could be tricky for some people.
C|------------5---6-6---------------------------------------------| The beat is a little weird, so just listen to the track
G|-------------------------6-6-3-3-------------------------------| to get a feel for how it’s supposed to sound.
C|------------5---6-6---------------------------------------------| That second open note on the C is hard to
G|------------------------------------------------------------------| describe in tab form.
C|-0---{0}---------------------------------------------------------|
* *
E|---------------------------------------------------------------------------------|
C|------------------------------------------------------------------------------6-|
G|---------------------------------------------------------4------6-----8--------|
C|-5--------5---------5--------5--------5-5-{0}--------------------------------|
G|-5--------5---------5--------5--------5-5-{0}--44----44----44---44------|
C|-5-5555-5-5555-5-5555-5-5555-5-5-{0}}}-----------------------------|
**** **** **** **** * ** ** ** **
E|--------------------------------------------------------------------------44----------------|
C|-----------------------------------------33-------------55---------33-----33-55--------|
G|-------{1}----------{1}------------44-------------44---------44-----------------66-33-|
C|-{1}---{1}---{1}---{1}----33-66---------33-66---------66-----------------------------| This is done 3x
G|-{1}—{1}---{1}---{1}---------------------------------------------------------------------|
C|-{1}----------{1}---------------------------------------------------------------------------|
** ** ** ** ** ** ** ** ** ** ** ** ** ** ** **
E|------------------------------------------------------------------|
C|------------------------------------------------------------------|
G|-------------------3~--3/5~--3--------------------------------|
C|-5--------6-----------------------6-5~-------------------------|
G|------------------------------------------------------------------|
C|-----66------66-------------------------------------------------|
** **
E|------------------------------------------------------------------|
C|------------------------------------------5~---------------------|
G|-----------------------3~--3/5~--3--------5~-----------------|
C|------5-------6-----------------------6-------------------------|
G|------------------------------------------------------------------|
C|-66-----66------66--------------------------------------------|
** ** **
E|------------------------------------------------------------------|
C|------------------------------------------------------------------|
G|------------------------------------------------------------------|
C|-1p0------1------1p0---55-66-33-66-11-66-----66-------|
G|-1p0--0--1--00-1p0----------------------------44-----------|
C|-1p0--0--1--00-1p0------------------------------------------|
* ** ** ** ** ** ** ** ** **
E|------------------------------------------------------------------|
C|------------------------------------------------------------------|
G|------------------------------------------------------------------|
C|-1p0------1-----1p0---55-66-33-66-5p3---6\3-----------|
G|-1p0--0--1--0--1p0-------------------------4----------------|
C|-1p0--0--1--0--1p0-------------------------------------------|
* * ** ** ** **
E|------------------------------------------------------------------|
C|------------------------------------------------------------------|
G|------------------------------------------------------------------|
C|-1p0------1------1p0---55-66-33-66-11-66-----66-------|
G|-1p0--0--1--00-1p0----------------------------44-----------|
C|-1p0--0--1--00-1p0------------------------------------------|
* ** ** ** ** ** ** ** ** **
E|------------------------------------------------------------------|
C|------------------------------------------------------------------|
G|------------------------------------------------------------------|
C|-1p0------1-----1p0---55-66-33-66-6p3---5--------------|
G|-1p0--0--1--0--1p0-------------------------4----------------|
C|-1p0--0--1--0--1p0-------------------------------------------|
* * ** ** ** **
E|------------------------------------------------------------------|
C|------------------------------------------------------------------|
G|------------------------------------------------------------------|
C|-5--------5---------5--------5--------5-5----------------------|
G|-5--------5---------5--------5--------5-5---------------------|
C|-5-5555-5-5555-5-5555-5-5555-5-5---------------------|
**** **** **** ****
E|-------------------------9-9-6-6--------------------------------|
C|------------5---6-6---------------------------------------------|
G|-------------------------6-6-3-3-------------------------------|
C|------------5---6-6---------------------------------------------|
G|------------------------------------------------------------------|
C|-0---{0}---------------------------------------------------------|
* *
E|---------------------------------------------------------------------------------|
C|------------------------------------------------------------------------------6-|
G|---------------------------------------------------------4------6-----8--------|
C|-5--------5---------5--------5--------5-5-{0}--------------------------------|
G|-5--------5---------5--------5--------5-5-{0}--44----44----44---44------|
C|-5-5555-5-5555-5-5555-5-5555-5-5-{0}}}-----------------------------|
**** **** **** **** * ** ** ** **
E|--------------------------------------------------------------------------44----------------|
C|-----------------------------------------33-------------55---------33-----33-55--------|
G|-------{1}----------{1}------------44-------------44---------44-----------------66-33-|
C|-{1}---{1}---{1}---{1}----33-66---------33-66---------66-----------------------------| This is done 4x
G|-{1}—{1}---{1}---{1}---------------------------------------------------------------------|
C|-{1}----------{1}---------------------------------------------------------------------------|
** ** ** ** ** ** ** ** ** ** ** ** ** ** ** **
E|-44--------------| E|-----------------------| So the 44,33,66,33 is done for a while, then later
C|-----33-66-33-| C|-33-66-33-Rest----| he does the 33,66,33, Rest. This long part
G|------------------| G|-----------------------| is done 2x.
C|------------------| C|------------------------|
G|-------------- ---| G|------------------------|
C|------------------| C|------------------------|
** ** ** ** ** ** **
E|-44--------------|
C|-----33-66-33-|
G|------------------|
C|------------------|
G|------------------|
C|------------------|
** ** ** **
E|-99------------------11 11--------------------------12 12--------------------------| ok for this part each pattern
C|-----88-11 11-88----------10 10-13 13-10 10---------11 11-14 14-11 11-| individually, is repeated.
G|----------------------------------------------------------------------------------------| 99,88,11 11,88 is repeated 4x
C|-----------------------------------------------------------------------------------------| the other two patterns are
G|-----------------------------------------------------------------------------------------| repeated 2x.
C|-----------------------------------------------------------------------------------------|
** ** ** ** ** ** ** ** ** ** ** ** ** ** ** ** ** ** ** ** **
E|--------------------------------------------------------------------------44----------------|
C|-----------------------------------------33-------------55---------33-----33-55--------|
G|-------{1}----------{1}------------44-------------44---------44-----------------66-33-|
C|-{1}---{1}---{1}---{1}----33-66---------33-66---------66-----------------------------| This is done 2x
G|-{1}—{1}---{1}---{1}---------------------------------------------------------------------|
C|-{1}----------{1}---------------------------------------------------------------------------|
** ** ** ** ** ** ** ** ** ** ** ** ** ** ** **
E|----------------------------------------------44---------------------| Then ending on the 2 note arpeggio section.
C|-------------33-------------55---------33-----33-55-------------|
G|---------44-------------44---------44-----------------66-33-----| This is done 2x
C|-33-66---------33-66---------66---------------------------------|
G|----------------------------------------------------------------------|
C|----------------------------------------------------------------------|
** ** ** ** ** ** ** ** ** ** ** ** ** ** ** **

| / slide up
| \ slide down
| h hammer-on
| p pull-off
| ~ vibrato
| * Palm mute
| {x} Let ring

Anyway, this is my first tab. Hope it makes sense. I think I got a majority of this song correct. Although if you play this and listen to the song. I left out some sliding up, and down parts in favor for keeping most of the patterns to the lower end of the neck. This is the finished version of the tab, I simplified one small section. You will see it if you compare the “old” tab to this one. I remember saying this song could be in one of the lower tunings; turns out it was the 5 string bass I was hearing for that chorded pull-off, hammer-on section on the zero and one frets. Well, hope you enjoy being able to play such an awesome song, I noticed it’s nowhere to be seen on the internet and this is one of my favorite songs. I figured if no one else will do it, I’ll just have to. If this tab turns out to be good enough for people, feel free to share it with each other and post it on other tablature websites as long as it says “Tabbed By Gatsu.”

Who is online

Users browsing this forum: No registered users and 1 guest