Whoa, this is so heavy! And unbelievably cheesy!
#322285 by mekahdexa
Tue Oct 07, 2014 3:48 pm
We're all anticipating Z2 and a small handful of songs from the two albums have been played on the radio or have been officially released by InsideOut Music. There's no doubt more songs will be tabbed once the albums drop.

I have tabbed Deathray from Dark Matters
http://www.mediafire.com/download/oyw1h ... athray.gp4

and I have also tabbed Universal Flame from Sky Blue
http://www.mediafire.com/download/dqbk7 ... _Flame.gp4

I'm not sure what the criteria for new threads requires but I figured it'd be better to have a separate topic so the Z2 thread doesn't get clogged with tabs. Let me know if I'm breaking any rules. Also Universal Flame has officially been released I think (on MetalSucks)? If that wasn't an official leak and I'm breaking the rules please let me know, thanks.
#322315 by Wille114
Thu Oct 09, 2014 3:09 pm
Last edited by Wille114 on Thu Oct 30, 2014 5:58 pm, edited 2 times in total.
#323828 by Wille114
Fri Jan 30, 2015 10:57 am
A New Reign - Devin Townsend Project

Tuning Open B (D# B F# B F# B)
♩ = 110

Intro 2x
Spoiler: show
Code: Select alle  |--------------------------------------------|--------------------------------------------|
B  |--------------------------------------------|--------------------------------------------|
F# |-------10------10----10------9------9----9--|-------8------8-----8------9------9----9----|
B  |-----8-------8-------------8------8---------|-----8------8------------8------8-----------|
F# |--10------10------10----10-----10-----10----|--10-----10-----10----10-----10-----10------|
B  |--------------------------------------------|--------------------------------------------|

Verse
Spoiler: show
Code: Select alle  |----------------------------------------------------------|
B  |----------------------------------------------------------|
F# |--12--10--10----10--10------------------------------------|
B  |--12--10--10----10--10----10----10--10----10--10--10--10--|
F# |--10---8---8-----8---8-----8-----8---8-----8---8---8---8--|
B  |---------------------------8-----8---8-----8---8---8---8--|

Code: Select alle  |---------------------------------------------------|
B  |---------------------------------------------------|
F# |--12--10--10----10--10-----------------------------|
B  |--12--10--10----10--10----7----7--7----7--7--7--7--|
F# |--10---8---8-----8---8----5----5--5----5--5--5--5--|
B  |--------------------------5----5--5----5--5--5--5--|

Code: Select alle  |----------------------------------------------------------|
B  |----------------------------------------------------------|
F# |--12--10--10----10--10------------------------------------|
B  |--12--10--10----10--10----10----10--10----10--10--10--10--|
F# |--10---8---8-----8---8-----8-----8---8-----8---8---8---8--|
B  |---------------------------8-----8---8-----8---8---8---8--|

Chorus
Spoiler: show
Code: Select alle  |--------------------------------------------|--------------------------------------------|
B  |--------------------------------------------|--------------------------------------------|
F# |--------------------------------------------|--8------8--8------8------------5--5--7--7--|
B  |--3------3--3------3----3--3----7--7--7--7--|--0------0--0------0----0--0----0--0--0--0--|
F# |--3------3--3------3----3--3----3--3--3--3--|--0------0--0------0----0--0----0--0--0--0--|
B  |--3------3--3------3----3--3----3--3--3--3--|--0------0--0------0----0--0----0--0--0--0--|


Code: Select alle  |--------------------------------------------|---------------------------------------------|
B  |--------------------------------------------|---------------------------------------------|
F# |--------------------------------------------|--8------8--8------8------------10-10-12-12--|
B  |--3------3--3------3----3--3----7--7--7--7--|--0------0--0------0----0--0-----0--0--0--0--|
F# |--3------3--3------3----3--3----3--3--3--3--|--0------0--0------0----0--0-----0--0--0--0--|
B  |--3------3--3------3----3--3----3--3--3--3--|--0------0--0------0----0--0-----0--0--0--0--|


Code: Select alle  |--------------------------------------------|--------------------------------------------|
B  |--------------------------------------------|--------------------------------------------|
F# |--------------------------------------------|--------------------------------------------|
B  |--8------8--8------8----8--8----8--8--8--8--|--0------0--0------0----0--0----0--0--0--0--|
F# |--8------8--8------8----8--8----8--8--8--8--|--0------0--0------0----0--0----0--0--0--0--|
B  |--8------8--8------8----8--8----8--8--8--8--|--0------0--0------0----0--0----0--0--0--0--|

Code: Select alle  |--------------------------------------------|
B  |--------------------------------------------|
F# |--------------------------------------------|
B  |--8------8--8------8----8--8----8--8--8--8--|
F# |--8------8--8------8----8--8----8--8--8--8--|
B  |--8------8--8------8----8--8----8--8--8--8--|

Verse
Spoiler: show
Code: Select alle  |----------------------------------------------------------|
B  |----------------------------------------------------------|
F# |--12--10--10----10--10------------------------------------|
B  |--12--10--10----10--10----10----10--10----10--10--10--10--|
F# |--10---8---8-----8---8-----8-----8---8-----8---8---8---8--|
B  |---------------------------8-----8---8-----8---8---8---8--|

Code: Select alle  |---------------------------------------------------|
B  |---------------------------------------------------|
F# |--12--10--10----10--10-----------------------------|
B  |--12--10--10----10--10----7----7--7----7--7--7--7--|
F# |--10---8---8-----8---8----5----5--5----5--5--5--5--|
B  |--------------------------5----5--5----5--5--5--5--|

Code: Select alle  |----------------------------------------------------------|
B  |----------------------------------------------------------|
F# |--12--10--10----10--10------------------------------------|
B  |--12--10--10----10--10----10----10--10----10--10--10--10--|
F# |--10---8---8-----8---8-----8-----8---8-----8---8---8---8--|
B  |---------------------------8-----8---8-----8---8---8---8--|

Chorus
Spoiler: show
Code: Select alle  |--------------------------------------------|--------------------------------------------|
B  |--------------------------------------------|--------------------------------------------|
F# |--------------------------------------------|--8------8--8------8------------5--5--7--7--|
B  |--3------3--3------3----3--3----7--7--7--7--|--0------0--0------0----0--0----0--0--0--0--|
F# |--3------3--3------3----3--3----3--3--3--3--|--0------0--0------0----0--0----0--0--0--0--|
B  |--3------3--3------3----3--3----3--3--3--3--|--0------0--0------0----0--0----0--0--0--0--|


Code: Select alle  |--------------------------------------------|--------------------------------------------|
B  |--------------------------------------------|--------------------------------------------|
F# |--------------------------------------------|--------------------------------------------|
B  |--3------3--3------3----3--3----7--7--7--7--|--0------0--0------0----0--0----0--0--0--0--|
F# |--3------3--3------3----3--3----3--3--3--3--|--0------0--0------0----0--0----0--0--0--0--|
B  |--3------3--3------3----3--3----3--3--3--3--|--0------0--0------0----0--0----0--0--0--0--|

Intro 2x
Spoiler: show
Code: Select alle  |--------------------------------------------|--------------------------------------------|
B  |--------------------------------------------|--------------------------------------------|
F# |-------10------10----10------9------9----9--|-------8------8-----8------9------9----9----|
B  |-----8-------8-------------8------8---------|-----8------8------------8------8-----------|
F# |--10------10------10----10-----10-----10----|--10-----10-----10----10-----10-----10------|
B  |--------------------------------------------|--------------------------------------------|

Break
Spoiler: show
Code: Select all    Harmonic
e  |--------------------------------------------------|-------|
B  |--------------------------------------------------|-------|
F# |--------------------------------------------------|-------|
B  |--------------------------------------------------|--0----|
F# |--------------------------------------------------|--0----|
B  |--4--3--2--0--4--3--2--0--4--3--2--0--4--3--2--0--|--0----|

Verse II 2x
Spoiler: show
Code: Select all                                                                  tremolo picking
e  |-----------------------------------------------------------|--------------------|
B  |---------0---------------------------------------0---------|--------------------|
F# |--------------0---------------------------------------0----|--------------------|
B  |--0--------------------2----3----6---7----8----------------|--------------------|
F# |--0--------------------------------------------------------|--------------------|
B  |--0--------------------2----3----6---7----8----------------|--7---14---7---3----|

Code: Select all                 P.M.                                       
e  |------------------------------------|-----------------------|
B  |------------------------------------|-----------------------|
F# |------------------------------------|------------------6----|
B  |--2---------------3--------0--------|-----------------------|
F# |--2----------2-2--3--------0--------|------------------6----|
B  |--2----------2-2--3--------0--------|----8----7-----0-------|

Code: Select all                                                                  tremolo picking
e  |-----------------------------------------------------------|--------------------|
B  |---------0---------------------------------------0---------|--------------------|
F# |--------------0---------------------------------------0----|--------------------|
B  |--0--------------------2----3----6---7----8----------------|--------------------|
F# |--0--------------------------------------------------------|--------------------|
B  |--0--------------------2----3----6---7----8----------------|--7---14---7---3----|

Code: Select all                 P.M.                                       
e  |-----------------------------------------------------------|-----------------------|
B  |-----------------------------------------------------------|-----------------------|
F# |---------------------------10--10--10--10--10--10--10--10--|------------------6----|
B  |--2---------------3----------------------------------------|----8----7-------------|
F# |--2----------2-2--3--------10--10--10--10--10--10--10--10--|------------------6----|
B  |--2----------2-2--3----------------------------------------|----8----7-----0-------|

Intro 2x
Spoiler: show
Code: Select alle  |--------------------------------------------|--------------------------------------------|
B  |--------------------------------------------|--------------------------------------------|
F# |-------10------10----10------9------9----9--|-------8------8-----8------9------9----9----|
B  |-----8-------8-------------8------8---------|-----8------8------------8------8-----------|
F# |--10------10------10----10-----10-----10----|--10-----10-----10----10-----10-----10------|
B  |--------------------------------------------|--------------------------------------------|

Verse
Spoiler: show
Code: Select alle  |----------------------------------------------------------|
B  |----------------------------------------------------------|
F# |--12--10--10----10--10------------------------------------|
B  |--12--10--10----10--10----10----10--10----10--10--10--10--|
F# |--10---8---8-----8---8-----8-----8---8-----8---8---8---8--|
B  |---------------------------8-----8---8-----8---8---8---8--|

Code: Select alle  |---------------------------------------------------|
B  |---------------------------------------------------|
F# |--12--10--10----10--10-----------------------------|
B  |--12--10--10----10--10----7----7--7----7--7--7--7--|
F# |--10---8---8-----8---8----5----5--5----5--5--5--5--|
B  |--------------------------5----5--5----5--5--5--5--|

Code: Select alle  |----------------------------------------------------------|
B  |----------------------------------------------------------|
F# |--12--10--10----10--10------------------------------------|
B  |--12--10--10----10--10----10----10--10----10--10--10--10--|
F# |--10---8---8-----8---8-----8-----8---8-----8---8---8---8--|
B  |---------------------------8-----8---8-----8---8---8---8--|

Chorus
Spoiler: show
Code: Select alle  |--------------------------------------------|--------------------------------------------|
B  |--------------------------------------------|--------------------------------------------|
F# |--------------------------------------------|--8------8--8------8------------5--5--7--7--|
B  |--3------3--3------3----3--3----7--7--7--7--|--0------0--0------0----0--0----0--0--0--0--|
F# |--3------3--3------3----3--3----3--3--3--3--|--0------0--0------0----0--0----0--0--0--0--|
B  |--3------3--3------3----3--3----3--3--3--3--|--0------0--0------0----0--0----0--0--0--0--|


Code: Select alle  |--------------------------------------------|---------------------------------------------|
B  |--------------------------------------------|---------------------------------------------|
F# |--------------------------------------------|--8------8--8------8------------10-10-12-12--|
B  |--3------3--3------3----3--3----7--7--7--7--|--0------0--0------0----0--0-----0--0--0--0--|
F# |--3------3--3------3----3--3----3--3--3--3--|--0------0--0------0----0--0-----0--0--0--0--|
B  |--3------3--3------3----3--3----3--3--3--3--|--0------0--0------0----0--0-----0--0--0--0--|

Outro
Spoiler: show
Code: Select alle  |--------------------------------------------|--------------------------------------------|
B  |--------------------------------------------|--------------------------------------------|
F# |--------------------------------------------|--------------------------------------------|
B  |--8------8--8------8----8--8----8--8--8--8--|--0------0--0------0----0--0----0--0--0--0--|
F# |--8------8--8------8----8--8----8--8--8--8--|--0------0--0------0----0--0----0--0--0--0--|
B  |--8------8--8------8----8--8----8--8--8--8--|--0------0--0------0----0--0----0--0--0--0--|
Code: Select alle |---------------------------|
B |---------------------------|
F#|---------------------------|
B |--8------8--8------8--8----|
F#|--8------8--8------8--8----|
B |--8------8--8------8--8----|

Who is online

Users browsing this forum: No registered users and 1 guest